Аккорды и табулатуры Зебры (Крематорий)

транспонировать:
          Em                        D        Am 
e|-------------------------------------------5-5-5-5-| 
B|------------------8-8-7-5---8-7-5----------5-5-5-5-| 
G|--------9---9-9-------------------7---7-7----------| 
D|--------9---9-9-------------------7---7-7----------| 
A|--------7---7-7-------------------5---5-5----------| 
E|-7-9-10--------------------------------------------| 
 
fill1: 
G|-2-4-5---| 
D|-------2-| 
 
Em 
Каждый раз по заказу луны 
Асфальтовый раб зажигает свои фонари, 
    D                         C 
Бездомные псы метят углы, багдадский вор подбирает ключи, 
   Em             H                E7  fill1 
С черного хода выходят на охоту львы. 
Am           Em 
И бегают зебры, зебры, 
Am 
Бегают зебры. 
 
repeat 
intro 
 
Всякий олух помнит о том, 
Что закон притяженья придуман небесным царем, 
И когда у молодого стрельца вскипает кровь и горят глаза, 
Значит, уже настала весна. 
Am 
И бегают зебры, зебры, 
  Em               Am     Em  Am  D  C 
Мне не дают спать зебры. 
               Em 
Наверное, я зоофил. 
                        Em                              F#m 
G|-------------------------------------------2-2-2---2--2------| 
D|---5-5-2---5-5-2---5-5-5-2---5-4-2-4-4-4----------------4-2--| 
 
Проигрыш: Em Am D C     Em                              F#m 
e|-------------------------------------------5-5-5---5--5------| 
B|---8-8-5---8-8-5---8-8-8-5---8-7-5-7-7-7----------------7-5--| 
 
e|17-17-17-17-17-17-17-15---------------------15-15-15---------| 
B|-----------------------18-18-17-17-17-17-17----------18-17-17| 
 
e|-------------------------------------------------------------| 
B|15-15-15-15-15-18-18-1817-15-15-13-13-13-13-17-17-17-13-13-13| 
 
Я угощу тебя волшебной водой, 
Повешу на грудь медаль с путеводной звездой, 
Завяжу узлом незримую нить, взломаю дверь в вечную жизнь, 
Но никогда не смогу объяснить, почему мне 
Так нравятся зебры. Мне 
Нравятся зебры, зебры. 
Наверное, я зоофил. 
Аккорды и табулатуры «Зебры» взяты из открытых источников и публикуются на сайте исключительно в образовательных учебных целях. Любое другое, в том числе коммерческое, их использование запрещено. Авторские и смежные права на Аккорды и табулатуры «Зебры» принадлежат их правообладателям.

Возрастная категория сайта 18+ Интернет-ресурс «Фальшивим вместе» (аккорды и табулатуры для гитары) предназначен для пользователей старше 18 лет. Предупреждение: тексты некоторых песен могут содержать нецензурные выражения, брань.

© 2003—2016 Образовательный музыкальный портал «Фальшивим вместе»
Почта для связи: falshivim-vmeste.ru@yandex.ru Солдатенко Игорь
29.06.2017 06:36

© Уважаемые посетители сайта, помните об авторских правах:
авторские права на предоставленную информацию принадлежат правообладателям.
Аккорды, табы и тексты песен взяты из открытых источников.
Тексты песен размещаются на сайте согласно ст. 1274 ГК РФ (ч.1 пп. 1 и 2) в учебных целях.
Аккорды к песням публикуются на сайте согласно ст. 1274 (ч.3) и ст. 1274 ГК РФ (ч.1 пп. 1 и 2) в учебных целях.
По вопросам связанными с авторскими и смежными правами пишите на: falshivim-vmeste.ru@yandex.ru.