Текст песни, аккорды и табулатуры Лесник (5 вариант) (Король и Шут)

транспонировать:
P.m. - "заглушка" кистью правой руки 
 
Intro:(p.m. все время) 
  Am 
E|-------------0-0-|-------------0-0-| 
B|-----1-1-3-3-----|-----1-1-3-3-----| 
G|-2-2-------------|-2-2-------------| 
D|-----------------|-----------------| 
A|-----------------|-----------------| 
E|-----------------|-----------------| 
 
   F 
E|---------3-3-1-1-|---------3-3-1-1-| 
B|-----1-1---------|-----1-1---------| 
G|-2-2-------------|-2-2-------------| 
D|-----------------|-----------------| 
A|-----------------|-----------------| 
E|-----------------|-----------------| 
 
  Dm 
E|-3-3-1-1-0-0-----|-3-3-1-1-0-0-----| 
B|-------------3-3-|-------------3-3-| 
G|-----------------|-----------------| 
D|-----------------|-----------------| 
A|-----------------|-----------------| 
E|-----------------|-----------------| 
  G 
E|-----------------|-----------------| 
B|-------------3-3-|-------------3-3-| 
G|-----4-4-5-5-----|-----4-4-5-5-----| 
D|-5-5-------------|-5-5-------------| 
A|-----------------|-----------------| 
E|-----------------|-----------------| 
Не уверен насчет двух последних тактов. И там еще есть вариации. 
 
Играется Intro 2 раза, затем оно же со следующим риффом: 
 
 p.m. - все время 
|-A5-/-/-/-/-/-/-/-|-/-/-/-/-/-/-/-/-| 
|-F5-/-/-/-/-/-/-/-|-/-/-/-/-/-/-/-/-| 
 
|-D5-/-/-/-/-/-/-/-|-/-/-/-/-/-/-/-/-| 
|-G5-/-/-/-/-/-/-/-|-/-/-/-/-/-/-/-/-| 
 
Затем дважды рифф: (ч - пауза) 
|-A5-/-/-/-/-/-/-F5-|---/-/-/-/-/-/-/-| 
|-D5-ч-/-ч-C5-D5-ч-/|-ч-G5-/-/-/-/-/-/| 
 
 Аккорды в скобках (A5) и т.п. означают ноты бас-гитары (можно 
 соответственно заменить гитарой. 
(A5)               (F5)       (G5) 
Измученный дорогой, я выбился из сил. 
   (A5)              (F5)      (G5) 
И в доме лесника я ночлега попросил. 
С улыбкой добродушной он меня в пустил. 
  A5 
И жестом дружелюбным на ужин пригласил. 
 
 Аккорды: 
|-D5-/-/-/-/-/-/-/-|-C5-----Bb5---C5-| x2 
 
Chorus (с Intro'шным риффом): 
 A5                            F5 
Будь как дома, путник, я не в чем не откажу, 
        D5                    G5 
Я ни в чем не откажу, я ни в чем не откажу! 
         A5                         F5 
Множество историй, коль желаешь, расскажу, 
                D5                      G5 
Коль желаешь, расскажу, коль желаешь, расскажу! 
 
На улице темнело, сидел я за столом. 
Лесник сидел напротив, болтал о том, о сем. 
Что нет среди животных у старика врагов, 
Что нравится ему подкармливать волков. 
 
  Chorus 
 
И волки среди ночи завыли под окном. 
Старик заулыбался и вдруг покинул дом. 
Но вскоре возвратился с ружьем наперевес: 
"Друзья хотят покушать, пойдем, приятель, в лес!" 
 
Coda: что-то типа того, но в другой тональности... 
 
G|------------------------------------| 
D|----3-3-4-3-----3-3-4-3-4---6-4-----| 
A|0-----------0-----------------------| 
E|--------------------------------2---| 
 
E|-----------------------------------| 
B|-----3-3-4-3-----3-3-4-3-4---6-4-8-| 
G|-0---------------------------------| 
D|-----------------------------------| 
 
 
 
 
 
Текст песни, аккорды и табулатуры «Лесник (5 вариант)» взяты из открытых источников и публикуются на сайте исключительно в образовательных учебных целях. Любое другое, в том числе коммерческое, их использование запрещено. Авторские и смежные права на Текст песни, аккорды и табулатуры «Лесник (5 вариант)» принадлежат их правообладателям.

Возрастная категория сайта 18+ Интернет-ресурс «Фальшивим вместе» (аккорды и табулатуры для гитары) предназначен для пользователей старше 18 лет. Предупреждение: тексты некоторых песен могут содержать нецензурные выражения, брань.

© 2003—2016 Образовательный музыкальный портал «Фальшивим вместе»
Почта для связи: barflybmg@ya.ru Солдатенко Игорь
24.03.2017 13:11

© Уважаемые посетители сайта, помните об авторских правах:
авторские права на предоставленную информацию принадлежат правообладателям.
Аккорды, табы и тексты песен взяты из открытых источников.
Тексты песен размещаются на сайте согласно ст. 1274 ГК РФ (ч.1 пп. 1 и 2) в учебных целях.
Аккорды к песням публикуются на сайте согласно ст. 1274 (ч.3) и ст. 1274 ГК РФ (ч.1 пп. 1 и 2) в учебных целях.
По вопросам связанными с авторскими и смежными правами пишите на: barflybmg@ya.ru.