Текст песни, аккорды и табулатуры Лесник (4 вариант) (Король и Шут)

транспонировать:
 Am   Dm    G    F    A5   D5   G5   F5   E5 
|-5-||-5-||-3-||-1-| |---||---||---||---||---| 
|-5-||-6-||-3-||-1-| |---||---||---||---||---| 
|-5-||-7-||-4-||-2-| |---||-7-||---||---||-9-| 
|-7-||-7-||-5-||-3-| |-7-||-7-||-5-||-3-||-9-| 
|-7-||-5-||-5-||-3-| |-7-||-5-||-5-||-3-||-7-| 
|-5-||-5-||-3-||-1-| |-5-||---||-3-||-1-||---| 
 
Вступление: 
  Am                        F 
  Gtr.1(elec) 
E|-------------------------|-------------------------| 
B|-------------------------|-------88-66-------88-66-| 
G|----55-77-99----55-77-99-|----55----------55-------| 
D|-77----------77----------|-77----------77----------| 
A|-------------------------|-------------------------| 
E|-------------------------|-------------------------| 
   Gtr.2(acous) 
E|-5-----------------------|-1-| 
B|-5-----------------------|-1-| 
G|-5-----------------------|-2-| 
D|-7-----------------------|-3-| 
A|-7-----------------------|-3-| 
E|-5-----------------------|-1-| 
 
   Dm                        G 
E|-------------------------|-------------------------| 
B|-88-66-55----88-66-55----|-88----------88----------| 
G|----------77----------77-|----44-55-77----44-55-77-| 
D|-------------------------|-------------------------| 
A|-------------------------|-------------------------| 
E|-------------------------|-------------------------| 
 
E|-5-----------------------|-3-| 
B|-6-----------------------|-3-| 
G|-7-----------------------|-4-| 
D|-7-----------------------|-5-| 
A|-5-----------------------|-5-| 
E|-5-----------------------|-3-| 
 
  Am                        F 
E|-------------------------|-------------------------| 
B|-------------------------|-------88-66-------88-66-| 
G|----55-77-99----55-77-99-|----55----------55-------| 
D|-77----------77----------|-77----------77----------| 
A|-------------------------|-------------------------| 
E|-------------------------|-------------------------| 
 
E|-7-----------------------|-1-| 
B|-7-----------------------|-1-| 
G|-7-----------------------|-2-| 
D|-5-----------------------|-3-| 
A|-5-----------------------|-3-| 
E|-7-----------------------|-1-| 
 
  Dm                        G 
E|-------------------------|----------------------| 
B|-88-66-55----88-66-55----|-88-------------------| 
G|----------77----------77-|----44-55-77----4-5-7-| 
D|-------------------------|--------------5-------| 
A|-------------------------|----------------------| 
E|-------------------------|----------------------| 
 
|-5-----------------------|-3-| 
|-6-----------------------|-3-| 
|-7-----------------------|-4-| 
|-7-----------------------|-5-| 
|-5-----------------------|-5-| 
|-5-----------------------|-3-| 
 
   Am                   F 
E|--------------------|-----3-1-----3-1-| (*)- в припеве так же 
B|---1-3-5------1-3-5-|---1-------1-----|  паралельно играется 
G|-2-------2--2-------|-2-------2-------|  это соло. 
D|--------------------|-----------------| 
A|--------------------|-----------------| 
E|--------------------|-----------------| 
 
   Dm                   G 
E|--------------------|-----------------| 
B|-8-6-5---8--8-6-5---|-8---------------| 
G|-------7----------7-|---4-5-7---4-5-7-| 
D|--------------------|---------5-------| 
A|--------------------|-----------------| 
E|--------------------|-----------------| 
 
  A5                         F5 
E|-------------------------|------3--1---------3--1--| 
B|---1--3--5------1--3--5--|----1-----------1--------| 
G|-2---------2--2----------|-2-----------2-----------| 
D|-------------------------|-------------------------| 
A|-------------------------|-------------------------| 
E|-------------------------|-------------------------| 
 
  Gtr.2(elc) 
E|-------------------------|-------------------------| 
B|-------------------------|-------------------------| 
G|-------------------------|-------------------------| 
D|-7-----------------------|-3-----------------------| 
A|-7-7-7-7-7-7-7-7-7-7-7-7-|-3-3-3-3-3-3-3-3-3-3-3-3-| 
E|-5-5-5-5-5-5-5-5-5-5-5-5-|-1-1-1-1-1-1-1-1-1-1-1-1-| 
 
  D5                         G5                        A5 
E|-------------------------|-------------------------| 
B|-8--6--5----8--8-6--5----|-8-----------------------| 
G|---------7------------7--|----4--5--7-----4--5--7--| 
D|-------------------------|-------------5-----------| 
A|-------------------------|-------------------------| 
E|-------------------------|-------------------------| 
 
E|-------------------------|-------------------------|---| 
B|-------------------------|-------------------------|---| 
G|-7-----------------------|-------------------------|---| 
D|-7-7-7-7-7-7-7-7-7-7-7-7-|-5-----------------------|-7-| 
A|-5-5-5-5-5-5-5-5-5-5-5-5-|-5-5-5-5-5-5-5-5-5-5-5-5-|-7-| 
E|-------------------------|-3-3-3-3-3-3-3-3-3-3-3-3-|-5-| 
 
  A5           F5            D5   C5 D5    E5 
E|------------|------------|-------------|-----------| 
B|------------|------------|-------------|-----------| 
G|------------|------------|-------------|-9-x-x-x-x-| 2 раза 
D|-7----------|-3----------|--7-7--5-7---|-9-x-x-x-x-| 
A|-7----------|-3----------|--5-5--3-5---|-7-x-x-x-x-| 
E|-5----------|-1----------|-------------|-----------| 
 
      Am                     F        G 
    Замученный дорогой,   я выбился   из   сил. 
E|----------5----------5-----------1-----------3-| 
B|----------5----------5-----------1-----------3-| 
G|----------5----------5-----------2-----------4-| 
D|----------7----------7-----------3-----------5-| 
A|----------7----------7-----------3-----------5-| 
E|----5-----5-----5----5------1----1---3-------3-| 
 
 И в доме лесника я ночлега попросил. 
 С улыбкой добродушной старик меня пустил. 
     A5 
 И жестом дружелюбным. На ужин пригласил. 
E|-----| 
B|-----| 
G|-----| 
D|---7-| 
A|---7-| 
E|---5-| 
 
 Х - э - й ! 
      A5    A5  D5 E5 
E|-------------------| 
B|-------------------| 
G|--------------7--9-| 
D|----7------7--7--9-| 
A|----7------7--5--7-| 
E|----5------5-------| 
 
припев: 
 
   A5                          F5 
  Будь как дома путник,я ни в чём не откажу, 
          D5                   G5           G5(без p.m.) 
  Я ни в чём не откажу,я ни в чём не откажу!  Х - э - й ! 
    A5(*)                   F5 
  Множество историй,коль желаешь расскажу, 
          D5                    G5 
  Коль желаешь расскажу,коль желаешь расскажу! 
 
   A5             D5   G5       A5            G5   F5 
E|----------------------------|---------------------------| 
B|----------------------------|---------------------------| 
G|----------------7-x---------|---------------------------| 
D|-7--x--7---7-7--7-x--5--5---|-7--x--7--7-7--5-x--3--3---| 
A|-7--x--7---7-7--5-x--5--5---|-7--x--7--7-7--5-x--3--3---| 
E|-5--x--5---5-5-------3--3---|-5--x--5--5-5--3-x--1--1---| 
 
На улице темнело, 
Сидел я за столом. 
Лесник сидел напротив, 
Болтал о том о сем. 
Что нет среди животных 
У старика врагов, 
Что нравится ему 
Подкармливать волков. 
 
припев. 
 
И волки среди ночи 
Завыли под окном. 
Старик заулыбался 
И вдруг покинул дом. 
Но вскоре возвратился 
С ружьем на перевес: 
"Друзья хотят покушать, 
Пойдем приятель в лес!" 
 
припев. 
 
  Am                       G 
E|-----------------------|-----------------------| 
B|-----------------------|-----------------------| 
G|-----------------------|-----------------------| 
D|-----------------------|-----------------------| 
A|--------9-7--------9-7-|--------7-5--------7-5-| 
E|-5--5-5-----5--5-5-----|-3--3-3-----3--3-3-----| 
 
  Am                       G           A5 
E|-----------------------|---------------| 
B|-----------------------|---------------| 
G|-----------------------|---------------| 
D|-----------------------|-------------7-| 
A|--------9-7--------9-7-|--------7-5--7-| 
E|-5--5-5-----5--5-5-----|-3--3-3------5-| 
Текст песни, аккорды и табулатуры «Лесник (4 вариант)» взяты из открытых источников и публикуются на сайте исключительно в образовательных учебных целях. Любое другое, в том числе коммерческое, их использование запрещено. Авторские и смежные права на Текст песни, аккорды и табулатуры «Лесник (4 вариант)» принадлежат их правообладателям.

Возрастная категория сайта 18+ Интернет-ресурс «Фальшивим вместе» (аккорды и табулатуры для гитары) предназначен для пользователей старше 18 лет. Предупреждение: тексты некоторых песен могут содержать нецензурные выражения, брань.

© 2003—2016 Образовательный музыкальный портал «Фальшивим вместе»
Почта для связи: barflybmg@ya.ru Солдатенко Игорь
24.03.2017 13:13

© Уважаемые посетители сайта, помните об авторских правах:
авторские права на предоставленную информацию принадлежат правообладателям.
Аккорды, табы и тексты песен взяты из открытых источников.
Тексты песен размещаются на сайте согласно ст. 1274 ГК РФ (ч.1 пп. 1 и 2) в учебных целях.
Аккорды к песням публикуются на сайте согласно ст. 1274 (ч.3) и ст. 1274 ГК РФ (ч.1 пп. 1 и 2) в учебных целях.
По вопросам связанными с авторскими и смежными правами пишите на: barflybmg@ya.ru.