Табулатуры Что такое осень (2 вариант) (ДДТ)

транспонировать:
Соло 
 
E|-------------------------------------10-13-12-10-12~---8-----| 
B|-13~~--13p12⁄10------13------10p9h12-------------------------| 
G|----------------9~------10~------------------------------9~--| 
D|-------------------------------------------------------------| 
A|-------------------------------------------------------------| 
E|-------------------------------------------------------------| 
 
E|------------12-10---------10-12-13-16--13-12-10--------------| 
B|--10--------------13-12~~-----------------------13--12h13-10-| 
G|-----7/9-10--------------------------------------------------| 
D|-------------------------------------------------------------| 
A|-------------------------------------------------------------| 
E|-------------------------------------------------------------| 
 
E|------------10-13-22-24--22-20-19~---16-17-19-16~------------| 
B|---------10--------------------------------------------------| 
G|--9⁄7/10-----------------------------------------------------| 
D|-------------------------------------------------------------| 
A|-------------------------------------------------------------| 
E|-------------------------------------------------------------| 
 
E|-----19-17-----19-17-----------24-22-------------------------| 
B|--17--------17--------17-15----------21----------------------| 
G|-------------------------------------------------------------| 
D|-------------------------------------------------------------| 
A|-------------------------------------------------------------| 
E|-------------------------------------------------------------| 
 
E|-----19-17------------------------17-16----------------------| 
B|--17--------18⁄17~~------15/17h18----------------------------| 
G|-------------------------------------------------------------| 
D|-------------------------------------------------------------| 
A|-------------------------------------------------------------| 
E|-------------------------------------------------------------| 
 
E|--------------16-17-19-20-19-17------------------------------| 
B|--17⁄15/17-18-------------------18---------------------------| 
G|-------------------------------------------------------------| 
D|-------------------------------------------------------------| 
A|-------------------------------------------------------------| 
E|-------------------------------------------------------------| 
 
E|-------------------------17------16--17--18--19~-------------| 
B|--17h18p17⁄15---15/17h18-------------------------------------| 
G|-------------------------------------------------------------| 
D|-------------------------------------------------------------| 
A|-------------------------------------------------------------| 
E|-------------------------------------------------------------| 
 
Припев 
 
E|------------------------------------------------------5--7---| 
B|------------------------------------------------------6--9---| 
G|------------------------------------------------------7--9---| 
D|-------------------------------------------------------------| 
A|--2-3--0-2-3--0----0-3-2------2-3-0-2-3--0---0-3-2-----------| 
E|----------------1--------4-0---------------1-----------------| 
 
E|----------------10----10--15--13--12-------------------------| 
B|----------------10----10----------12-------------------------| 
G|----------------10----10----------13-------------------------| 
D|-------0-----------------------------------------------------| 
A|---2р3---2-3~~-----------------------------------------------| 
E|-------------------------------------------------------------| 
 
Окончание 
 
E|-------------------------------5-----7---||------------------| 
B|-------------------------------6-----9---||------------------| 
G|*------------------------------7-----9--*||------------------| 
D|*---2--2--------3--3--------------------*||---2--------------| 
A|---------3-2-0-------3-2-0---------------||---2--------------| 
E|-----------------------------------------||---0--------------| 
 
Что такое осень? Это небо 
Плачущее небо под ногами 
В лужах разлетаются птицы с облаками 
Осень, я давно с тобою не был. 
В лужах разлетаются птицы с облаками 
Осень, я давно с тобою не был. 
 
   Осень. В небе жгут корабли 
   Осень. Мне бы прочь от земли 
   Там, где в море тонет печаль 
   Осень, темная даль. 
 
Что такое осень? Это камни 
Верность над чернеющей евою 
Осень, ты напомнила душе о самом главном 
Осень, я опять лишен покоя. 
 
Что такое осень? Это ветер 
Вновь играет рваными цепями 
Осень, доползем ли, долетим ли до ответа, 
Что же будет с Родиной и с нами. 
Осень, доползем ли, доживем ли до рассвета? 
Что же будет завтра с нами. 
 
   Тает стаей город во мгле 
   Осень, что я знал о тебе 
   Сколько буде рваться листва 
   Осень вечно права. 
Табулатуры «Что такое осень (2 вариант)» взяты из открытых источников и публикуются на сайте исключительно в образовательных учебных целях. Любое другое, в том числе коммерческое, их использование запрещено. Авторские и смежные права на Табулатуры «Что такое осень (2 вариант)» принадлежат их правообладателям.

Возрастная категория сайта 18+ Интернет-ресурс «Фальшивим вместе» (аккорды и табулатуры для гитары) предназначен для пользователей старше 18 лет. Предупреждение: тексты некоторых песен могут содержать нецензурные выражения, брань.

© 2003—2016 Образовательный музыкальный портал «Фальшивим вместе»
Почта для связи: falshivim-vmeste.ru@yandex.ru Солдатенко Игорь
29.06.2017 06:59

© Уважаемые посетители сайта, помните об авторских правах:
авторские права на предоставленную информацию принадлежат правообладателям.
Аккорды, табы и тексты песен взяты из открытых источников.
Тексты песен размещаются на сайте согласно ст. 1274 ГК РФ (ч.1 пп. 1 и 2) в учебных целях.
Аккорды к песням публикуются на сайте согласно ст. 1274 (ч.3) и ст. 1274 ГК РФ (ч.1 пп. 1 и 2) в учебных целях.
По вопросам связанными с авторскими и смежными правами пишите на: falshivim-vmeste.ru@yandex.ru.