Аккорды и табулатуры Паранойя (2 вариант) (Ария)

транспонировать:
E|-4-4-4-4-2p0-4-4-4-2-0----------4-4-4-2-4-4/5-4p2------------| 
B|5----------------------4-4/5--2-------------------5p3-3p2-2p0| 
 
G|--------------4----------------------------------------------| 
E|--4-4-4-4-2p0-7-7-7-7-9-7-5/7-4-4-4-4-2-4-4/5-4p2------------| 
B|5-------------------------------------------------5p3-3p2p0--| 
G|------------------------------------------------------------2| 
 
Intro: Em 
 
D|----------5------|         4|-----------------| 
A|-5--5-7-7---7-7--| 3 times 5|-7--8-7-5-7-5----| 
E|-----------------|         6|--------------7--| 
 
D|----------5------|         4|-----------------| 
A|-5--5-7-7---7-7--| 3 times 5|-7--8-7-5-7------| 
E|-----------------|         6|-----------------| 
 
     Em 
Я работал как волк, но не выл на Луну 
Каждый день я привык уходить на войну - 
        D 
Здесь воюют всегда 
                           Em riff1 
За кресты, за звезды и за воздух 
 
riff1 
D|------------------| 
A|-7--8-7-5-7-5-----| 
E|--------------7-5-| 
 
  В этой пьяной стране есть для каждого кнут 
  Здесь поют о душе и в нее же плюют 
  Как назло, как назло, как назло 
  Я понял слишком поздно... 
 
Chorus: 
 
H   riff2        C 
Эта жизнь не для белых 
H   riff3         C 
Эта жизнь не для черных, нет 
H   riff4        C            H 
Эта жизнь без надежды на просвет! 
 
riff2              riff3                riff4 
E|---------------| 1|-----------------| 1|-------------------7-| 
B|-7-7-7-5-7-8-8-| 2|-7-7-7-5-7-8-8-8-| 2|-7-7-7-5-7-8-8-7-8---| 
G|---------------| 3|-----------------| 3|---------------------| 
 
Em                   H 
  Где-то любовь светла 
                  C#m 
  Где-то вода чиста 
                           D 
  И не стучится в дверь беда 
  Где-то покой и свет 
  Но только нас там нет 
  Нам не бывать там никогда 
 
Intro. 
 
У подруги моей тоже собственный ад 
Но там нет ничего: ни чертей ни огня 
Только страх темноты 
И случайной встречи с незнакомцем 
Он высок, он жесток, он полночный маньяк 
У него сто имен на газетных листах 
Он везде, он везде, он везде 
Как только сядет солнце... 
 
Chorus. 
Intro. 
 
Я вчера видел крыс - завтра грянет чума 
И пойдет пировать, поджигая дома 
Всем раздаст по кресту 
И на Страшный Суд отправит строем 
А сегодня все пьют, чтоб не выть на Луну 
Пир во время чумы, кто есть кто не пойму 
Я бегу чтобы жить 
А вокруг ликует паранойя 
Аккорды и табулатуры «Паранойя (2 вариант)» взяты из открытых источников и публикуются на сайте исключительно в образовательных учебных целях. Любое другое, в том числе коммерческое, их использование запрещено. Авторские и смежные права на Аккорды и табулатуры «Паранойя (2 вариант)» принадлежат их правообладателям.

Возрастная категория сайта 18+ Интернет-ресурс «Фальшивим вместе» (аккорды и табулатуры для гитары) предназначен для пользователей старше 18 лет. Предупреждение: тексты некоторых песен могут содержать нецензурные выражения, брань.

© 2003—2016 Образовательный музыкальный портал «Фальшивим вместе»
Почта для связи: falshivim-vmeste.ru@yandex.ru Солдатенко Игорь
30.05.2017 16:03

© Уважаемые посетители сайта, помните об авторских правах:
авторские права на предоставленную информацию принадлежат правообладателям.
Аккорды, табы и тексты песен взяты из открытых источников.
Тексты песен размещаются на сайте согласно ст. 1274 ГК РФ (ч.1 пп. 1 и 2) в учебных целях.
Аккорды к песням публикуются на сайте согласно ст. 1274 (ч.3) и ст. 1274 ГК РФ (ч.1 пп. 1 и 2) в учебных целях.
По вопросам связанными с авторскими и смежными правами пишите на: falshivim-vmeste.ru@yandex.ru.