Текст песни, аккорды и табулатуры Закат (3 вариант) (Ария)

транспонировать:
Интродукция: 
e|-----4-2-0Н2р0-----------|---4-2-0Н2р0---------------| 
B|---0-----------4-2--2--0-|--0----------4-2--0--2-2-4-| 
G|-1-----------------------|-1-------------------------| 
D|-------------------------|---------------------------| 
А|--------------------0--2-|---------------------0-0-2-| 
E|-----0-------------------|---0-----------------------| 
 
e|-0-----0-2-----0-4-----2-0Н2р0-----------0--------0--| 
B|---2-------4-------0-----------4-2-0--2--------4-----| 
G|-----2-------4-------1-------------------------------| 
D|-----------------------------------------------------| 
А|-0-------2----------------------------0-----2--------| 
E|-----------------0--------------------------------0--| 
 
e|-----4-2-0Н2р0-----------|---4-2-0Н2р0---------------| 
B|---0-----------4-2--2--0-|--0----------4-2--0--2-2-4-| 
G|-1-----------------------|-1-------------------------| 
D|-------------------------|---------------------------| 
А|--------------------0--2-|---------------------0-0-2-| 
E|-----0-------------------|---0-----------------------| 
 
e|-0-----0-2-----0-4-----2-0-----------0--------| 
B|---2-------4-------0-------4-2-0--2------0--4-| 
G|-----2-------4-------1------------------0-----| 
D|---------------------------------------2------| 
А|-0-------2------------------------0------2----| 
E|-----------------0----------------------------| 
 
Проигрыш: 
e|---------------------------------| 
B|---------------------------------| 
G|-----0-------0-------0-------0---| (Играется 4 раза) 
D|-------2-------2---2---2---4---4-| 
А|---2-------2-----3-------5-------| 
E|-0-------0-----------------------| 
 
1 куплет: 
 
   Em    Am    D       Em 
e|------0---------------0-------------2-3-2Н3р2----------------| 
B|----0---0-----------1---1---------3----------3---------------| 
G|--0-------0-------2-------2-----2--------------2--0---0---0--| 
D|-2----------2---2-----------2-0-----------------2---2---2---2| 
А|--------------0----------------------------------------------| 
E|0-----------------------------------------------0------------| 
   Я     вижу,     как    закат    стекла оконные     плавит 
 
  Em    Am    F#    B7 
e|-------0---------------0--------------2---------------2------| 
B|-----0---0-----------1---1----------2---2-----------0---0----| 
G|---0-------0-------2-------2------3-------3-------2-------2--| 
D|-2-----------2---2-----------2--4-----------4---1-----------1| 
А|---------------0------------------------------2--------------| 
E|0------------------------------2-----------------------------| 
   День прожит,  а ночь  оставит   тени  снов в углах 
 
Мне не вернуть назад 
Серую птицу печали, 
Все в прошлом, так быстро тают 
Замки в облаках. 
 
⁄Вторая половина куплета играется так же, 
⁄но в конце, перед припевом: 
   B7 
e|---------2-------| 
B|-------0---------| 
G|-----2-----------| 
D|---1-------------| 
А|-2---------------| 
E|-----------------| 
Припев (боем): 
E7          Am 
Там все живы, кто любил меня, 
     C        B7 
Где восход, как праздник бесконечной жизни. 
E7      Am 
Там нет счета рекам и морям, 
     C     B7 
Но по ним нельзя доплыть домой. 
 
Проигрыш. 
 
2 куплет (играется так же, как первый): 
Вновь примирит все тьма, 
Даже алмазы и пепел. 
Друг равен врагу в итоге, 
А итог один... 
Два солнца у меня 
На этом и прошлом свете, 
Их вместе собой укроет 
Горько-сладкий дым. 
 
Припев. 
 
B|------------------------| 
G|-----0-2-4-2Н4р2-0------| 
D|------------------------| 
     G D 
Возьми меня с собой, пурпурная река, 
     G       D 
Прочь унеси меня с собой, закат! 
     Am C 
Тоска о том, что было рвется через край 
     Bm   C 
Под крики серых птичьих стай... 
 
Интродукция (постепенно затихая). 
Текст песни, аккорды и табулатуры «Закат (3 вариант)» взяты из открытых источников и публикуются на сайте исключительно в образовательных учебных целях. Любое другое, в том числе коммерческое, их использование запрещено. Авторские и смежные права на Текст песни, аккорды и табулатуры «Закат (3 вариант)» принадлежат их правообладателям.

Возрастная категория сайта 18+ Интернет-ресурс «Фальшивим вместе» (аккорды и табулатуры для гитары) предназначен для пользователей старше 18 лет. Предупреждение: тексты некоторых песен могут содержать нецензурные выражения, брань.

© 2003—2016 Образовательный музыкальный портал «Фальшивим вместе»
Почта для связи: barflybmg@ya.ru Солдатенко Игорь
27.03.2017 09:52

© Уважаемые посетители сайта, помните об авторских правах:
авторские права на предоставленную информацию принадлежат правообладателям.
Аккорды, табы и тексты песен взяты из открытых источников.
Тексты песен размещаются на сайте согласно ст. 1274 ГК РФ (ч.1 пп. 1 и 2) в учебных целях.
Аккорды к песням публикуются на сайте согласно ст. 1274 (ч.3) и ст. 1274 ГК РФ (ч.1 пп. 1 и 2) в учебных целях.
По вопросам связанными с авторскими и смежными правами пишите на: barflybmg@ya.ru.